Katalonien · Rimini · Lido di Jesolo · Istria

Sprache wählen: RU DE

Ambasciatori Palace
Region: lido
Stadt: Lido di Jesolo
BASE Pansion: HP
Kinder bis 1 Jahr: 90€ (+ 70€ Bezahlung vor Ort) Kinder bis 6 Jahr: 50% Kinder bis 12 Jahre: 30% 3.,4. Erw: 10% Бесплатны Strandservice с мая по сентябрь четырехместные Zimmer: auf Anfrage

Komfortables Hotel direkt am Strand gelegen. Das Hotel verfügt über einen Aufzug, einen Parkplatz, einen Swimmingpool, einen Privatstrand, eine Bar und eine Klimaanlage in den öffentlichen Bereichen. Zimmer: Dusche, WC, Balkon, Klimaanlage, Internet, TV, Safe. Essen - Buffet.

.




3E 4E
Datum 7 14 7 14 7 14 EZ ÜF HP VP All
Fri, 31.05.24
------50-50-5000
Fri, 07.06.24
------50-50-5000
Fri, 14.06.24
------50-50-5000
Fri, 21.06.24
------50-50-5000
Fri, 28.06.24
------50-50-5000
Fri, 05.07.24
------50-50-5000
Fri, 12.07.24
------50-50-5000
Fri, 19.07.24
------50-50-5000
Fri, 26.07.24
------50-50-5000
Fri, 02.08.24
------50-50-5000
Fri, 09.08.24
------50-50-5000
Fri, 16.08.24
------50-50-5000
Fri, 23.08.24
------50-50-5000
Fri, 30.08.24
------50-50-5000
Fri, 06.09.24
------50-50-5000
Fri, 13.09.24
------50-50-5000