Katalonien · Rimini · Lido di Jesolo · Istria

Sprache wählen: RU DE

D Annunzio
Region: lido
Stadt: Lido di Jesolo
BASE Pansion: HP
Kinder bis 2 Jahr: 60€ Kinder von 2 Jahre bis 12 Jahre: 50% 3-4 Erw: 20 % экономия 5% bis 30.04.2022 DZ Standard= DZ Comfort

Dieses gemütliche, familiengeführte Hotel ist zentral gelegen und nur 100 m vom Strand entfernt. Das Hotel verfügt über ein Restaurant, Aufzug, Bar mit Terrasse, Pool mit Sonnenschirmen und Liegestühlen, kostenloses Internet im Erholungsgebiet. Zimmer mit Dusche/WC, Internet, Telefon, TV, französischem Balkon, Klimaanlage. Mahlzeiten in Buffetform, Menü und Strandservice sind nicht inbegriffen!




3E 4E
Datum 7 14 7 14 7 14 EZ ÜF HP VP All
Fri, 27.05.22
------0-39-3900
Fri, 03.06.22
------0-40-4000
Fri, 10.06.22
------0-40-4000
Fri, 17.06.22
------0-40-4000
Fri, 24.06.22
------0-40-4000
Fri, 01.07.22
------0-39-3900
Fri, 08.07.22
------0-39-3900
Fri, 15.07.22
------0-39-3900
Fri, 22.07.22
------0-39-3900
Fri, 29.07.22
------0-39-3900
Fri, 05.08.22
------0-39-3900
Fri, 12.08.22
------0-39-3900
Fri, 19.08.22
------0-39-3900
Fri, 26.08.22
------0-40-4000
Fri, 02.09.22
------0-40-4000
Fri, 09.09.22
------0-40-4000
Fri, 16.09.22
------0-40-4000