Katalonien · Rimini · Lido di Jesolo · Istria

Sprache wählen: RU DE
Susy
Region: rimini
Stadt: Rivazzura di Rimini
BASE Pansion: HP
EZ: 88€ (auf Anfrage) Kind von 0 bis 2 Jahre: 90€ (ohne Bett) Kinder von 3 bis 13 Jahre: 50% 3,4 Erw: 10% Strandservice: 175€ / Zimmer/2 лежака und 1 зонт (außer 03.08-16.08) Парковка: 8€ / Tag, Bezahlung vor Ort собачки: 10€ / Tag, Bezahlung vor Ort, auf Anfrage



3E 4E
Datum 7 14 7 14 7 14 EZ ÜF HP VP All
Fri, 24.05.24
------88-18-18-180
Fri, 31.05.24
------88-18-18-180
Fri, 07.06.24
------88-18-18-180
Fri, 14.06.24
------88-18-18-180
Fri, 21.06.24
------88-18-18-180
Fri, 28.06.24
------88-18-18-180
Fri, 05.07.24
------88-18-18-180
Fri, 12.07.24
------88-18-18-180
Fri, 19.07.24
------88-18-18-180
Fri, 26.07.24
------88-18-18-180
Fri, 02.08.24
------88-18-18-180
Fri, 09.08.24
------88-18-18-180
Fri, 16.08.24
------88-18-18-180
Fri, 23.08.24
------88-18-18-180
Fri, 30.08.24
------88-18-18-180
Fri, 06.09.24
461-1167-1411-88-18-18-180