Katalonien · Rimini · Lido di Jesolo · Istria

Sprache wählen: RU DE

Park Hotel Cellini
Region: lido
Stadt: Lido di Jesolo
BASE Pansion: HP
Kinder von 0 bis 2 Jahre: 70€ Kinder von 3 bis 6 Jahre: 50% Kinder von 7 bis 14 Jahre: 30% 3 Erw: 4 Erw: 20 % Strandservice gratis с 21.05: 20.09.22

Das Hotel befindet sich direkt am Strand.
Hotel Ausstattung: Bar, Restaurant, Lift, Sauna, Schwimmbad,
Parkplätze, 2 Liegen+1 Sonnenschirm pro Zimmer am Strand inkl.
Zimmer Ausstattung: Dusche/WC, TV-Gerät, Telefon, Föhn,
Klimaanlage, Kühlschrank, Safe, Balkon mit seitl. Meerblick.
Verpflegung: Frühstück- Buffet, Mittag- Abendessen "a la
carte".




 




3E 4E
Datum 7 14 7 14 7 14 EZ ÜF HP VP All
Fri, 03.06.22
----0-0-100-10000
Fri, 10.06.22
----0-0-100-10000
Fri, 17.06.22
----0-0-100-10000
Fri, 24.06.22
----0-0-100-10000
Fri, 01.07.22
----0-0-100-10000
Fri, 08.07.22
----0-0-100-10000
Fri, 15.07.22
----0-0-100-10000
Fri, 22.07.22
----0-0-100-10000
Fri, 29.07.22
----0-0-100-10000
Fri, 05.08.22
----0-0-100-10000
Fri, 12.08.22
----0-0-100-10000
Fri, 19.08.22
----0-0-100-10000
Fri, 26.08.22
----0-0-100-10000
Fri, 02.09.22
----0-0-100-10000
Fri, 09.09.22
----0-0-89-8900
Fri, 16.09.22
----0-0-89-8900